• А
  • Б
  • В
  • Г
  • Д
  • Е
  • Ж
  • З
  • И
  • К
  • Л
  • М
  • Н
  • О
  • П
  • Р
  • С
  • Т
  • У
  • Ф
  • Х
  • Ц
  • Ч
  • Ш
  • Э
  • Ю
  • Я
  • A
  • B
  • C
  • D
  • E
  • F
  • G
  • H
  • I
  • J
  • K
  • L
  • M
  • N
  • O
  • P
  • Q
  • R
  • S
  • T
  • U
  • V
  • W
  • X
  • Y
  • Z
  • #
  • Текст песни Tenacious D - Fuck Her Gently

    Исполнитель: Tenacious D
    Название песни: Fuck Her Gently
    Дата добавления: 21.09.2014 | 19:10:57
    Просмотров: 23
    0 чел. считают текст песни верным
    0 чел. считают текст песни неверным
    Тут расположен текст песни (слова песни) Tenacious D - Fuck Her Gently, перевод и видео (клип).
    This is a song for the ladies
    But fellas listen closely
    You don't always have to fuck her hard
    In fact sometimes that's not right to do
    Sometimes you've got to make some love
    And fuckin give her some smoochies too
    Sometimes ya got to squeeze
    Sometimes you've got to say please
    Sometime you've got to say hey
    I'm gonna Fuck you softly
    I'm gonna screw you gently
    I'm gonna hump you sweetly
    I'm gonna ball you discreetly
    And then you say hey I bought you flowers
    And then you say wait a minute sally
    I think I got somethin in my teeth
    Could you get it out for me
    That's fuckin teamwork
    Whats your favorite posish?
    That's cool with me
    Its not my favorite
    But I'll do it for you
    Whats your favorite dish?
    Im not gonna cook it
    But ill order it from Zanzibar
    And then I'm gonna love you completely
    And then I'll fuckin fuck you discreetly
    And then I'll fucking bone you completely
    But then I'm gonna fuck you hard
    Hard
    ___________________________________
    E A D G B e
    D x-x-o-2-3-2
    F#m x-x-4-6-7-5
    Em x-x-2-4-5-3
    A(ii) x-0-2-0-2-2

    Opening
    E------------------------------------------
    A--------------------------------0---------
    D--0---------4---------2----------2--------
    G-----2--2------6--6------4--4-----0-------
    B----3--3-3----7--7-7----5--5-5------2-----
    e---2--2------5--5------3--3--------2------

    (picking)

    D F#m Em A(ii)
    Dont always have to fuck her hard, in fact sometimes thats not right, to do

    D F#m Em A(ii)
    Sometimes you got to make some love, and fuckin giver some smoochy smooch

    (The opening picking plays throught most of the song except for whats below and a few other times)

    (strumming)

    Bm G Bm G
    Sometimes you have to squeeze, sometimes you have to say please

    D A
    Somtimes you have to say hey

    (Picking)

    D F#m Em A(ii)
    Im gonna fuck you softly, im gonna screw you gently

    D F#m Em A(ii)
    Im gonna hump you sweetly, im gonna ball you discretly

    (strumming)

    Bm G
    And then you'll say hey I brought you flowers

    D A
    And then you'll say wait a minute Sally

    Bm G
    I think i got somethin in my teeth

    D A
    Will you get it out for me, Thats fuckin teamwork

    (picking)

    D F#m
    What's your favorite posish?

    Em A(ii)
    That's cool with me it's not my favorite but I'll do it for you.

    D F#m
    What's your favorite dish?

    Em A(ii)
    I'm not gonna cook it but I'll order it from Zanzibar!

    (strumming)

    Bm G
    And then I'm gonna love you completely,

    D A
    and then I'll fucking fuck you discreetly,

    Bm G
    and then I'll fucking bone you completely.

    D A C D
    But then I'm gonna fuck you hard! Hard.

    _____________________________________
    Tabulated By John Ware

    meat5000@yahoo.com

    23/12/02

    e|---2-----2-----------5-----5-----------3----3-----------------0---------------|
    B|-----3-----3-----------7-----7-----------5----5-------------2-----------------|
    G|-------2-----2-----------6-----6-----------4----4---------0-------------------|
    D|-0-------------0---4-------------4---2------------------2---------------------|
    A|------------------------------------------------------0-----------------------|
    E|------------------------------------------------------------------------------|

    e|---2-----2-----------5-----5-----------3----3-----------------------0---------|
    B|-----3-----3---3-------7-----7-----------5----5---------2-----2h3-----2h3-----|
    G|-------2-----2-----------6-----6-----------4----4---------2-------2-----------|
    D|-0-----------------4-------------4---2----------------------2-----------------|
    A|------------------------------------------------------0-----------------------|
    E|------------------------------------------------------------------------------|
    Это песня для дам
    Но ребята внимательно слушать
    Вы не всегда должны ебать ее трудно
    На самом деле иногда это не так сделать
    Иногда ты должен сделать немного любви
    И гребаный дать ей некоторые smoochies слишком
    Иногда у тебя есть , чтобы сжать
    Иногда ты должен сказать, пожалуйста,
    Иногда ты должен сказать эй
    Я собираюсь Пошел ты тихо
    Я собираюсь винт вас нежно
    Я собираюсь горб вас сладко
    Я собираюсь мяч вам незаметно
    А потом вы говорите, эй , я купил тебе цветы
    И тогда вы говорите Минуточку вылазку
    Я думаю, что я получил что-нибудь в зубах
    Не могли бы вы достать для меня
    Это гребаный командная работа
    Что ваш любимый posish ?
    Это круто со мной
    Его не мой любимый
    Но я сделаю это для вас
    Что Ваше любимое блюдо ?
    Im не собираюсь готовить
    Но плохо заказать его из Занзибара
    И тогда я буду любить тебя, полностью
    И тогда я гребаный пошел на хуй осторожно
    И тогда я буду трахать кость вас полностью
    Но потом я собираюсь пошел на хуй жесткий
    Жесткий
    ___________________________________
    ED G Б е
    Г х - х -о- 2-3-2
    F # м х - х - 4-6-7-5
    Эм х - х - 2-4-5-3
    (II ) X- 0-2-0-2-2

    Открытие
    E ------------------------------------------
    -------------------------------- 0 ---------
    D - 0 --------- 4 --------- 2 ---------- 2 --------
    G ----- 2-2 ------ 6-6 ------ 4-4 ----- 0 -------
    B ---- 3--3-3 ---- 7--7-7 ---- 5--5-5 ------ 2 -----
    е --- 2-2 ------ 5-5 ------ 3-3 -------- 2 ------

    ( сбор )

    D F # м Em(II )
    Dont всегда ебать ее трудно , в то, иногда это еще не право , делать

    D F # м Em(II )
    Иногда вы должны сделать некоторые любят , и гребаный даритель некоторое Смучи Smooch

    ( Открытие выбирая пьесы повсеместно в самых песни для Что ниже , и еще несколько раз , за исключением )

    ( бренчание )

    Bm G Bm G
    Иногда вам придется сжать , иногда нужно сказать, пожалуйста,

    D
    Somtimes вы должны сказать эй

    ( Комплектование )

    D F # м Em(II )
    Im собираюсь пошел на хуй мягко , им буду винт вас нежно

    D F # м Em(II )
    Im собираюсь трахать тебя сладко , им буду мяч вы discretly

    ( бренчание )

    Bm G
    И тогда вы будете говорить эй я принес тебе цветы

    D
    И тогда вы будете говорить погоди Салли

    Bm G
    Я думаю, что я получил что-нибудь в зубах

    D
    Будете ли вы получить его для меня , То гребаный совместной работы

    ( сбор )

    D F # м
    Какой ваш любимый posish ?

    Em(II )
    Это круто со мной это не мое любимое, но я сделаю это для вас .

    D F # м
    Какой ваш любимый блюдо ?

    Em(II )
    Я не собираюсь приготовить его , но я закажу его из Занзибара !

    ( бренчание )

    Bm G
    И тогда я буду любить тебя полностью ,

    D
    и тогда я буду чертовски пошел на хуй осторожно ,

    Bm G
    и тогда я буду трахать кость вас полностью.

    DC D
    Но тогда я буду ебать вас трудно ! Жесткий .

    _____________________________________
    Табличные Джон Ware

    meat5000@yahoo.com

    23/12/02

    е | --- 2 ----- 2 ----------- 5 ----- 5 ----------- 3 ---- 3 --- -------------- 0 --------------- |
    B | ----- 3 ----- 3 ----------- 7 ----- 7 ----------- 5 ---- 5- ------------ 2 ----------------- |
    G | ------- 2 ----- 2 ----------- 6 ----- 6 ----------- 4 ---- 4 --------- 0 ------------------- |
    D | -0 ------------- 0 --- 4 ------------- 4 --- 2 ---------- -------- 2 --------------------- |
    | ------------------------------------------------ ------ 0 ----------------------- |
    E | ------------------------------------------------ ------------------------------ |

    е | --- 2 ----- 2 ----------- 5 ----- 5 ----------- 3 ---- 3 --- -------------------- 0 --------- |
    B | ----- 3 ----- 3 --- 3 ------- 7 ----- 7 ----------- 5 ---- 5- -------- 2 ----- 2H3 ----- 2H3 ----- |
    G | ------- 2 ----- 2 ----------- 6 ----- 6 ----------- 4 ---- 4 --------- 2 ------- 2 ----------- |
    D | -0 ----------------- 4 ------------- 4 --- 2 ---------- ------------ 2 ----------------- |
    | ------------------------------------------------ ------ 0 ----------------------- |
    E | ------------------------------------------------ ------------------------------ |

    Смотрите также:

    Все тексты Tenacious D >>>

    Опрос: Верный ли текст песни?
    ДаНет